ISO-10303-21;
HEADER;
FILE_DESCRIPTION (( 'STEP AP203' ),
    '1' );
FILE_NAME ('MHWP-12.7-488.STEP',
    '2020-12-22T09:24:52',
    ( '' ),
    ( '' ),
    'SwSTEP 2.0',
    'SolidWorks 2020',
    '' );
FILE_SCHEMA (( 'CONFIG_CONTROL_DESIGN' ));
ENDSEC;

DATA;
#1 = APPLICATION_PROTOCOL_DEFINITION ( 'international standard', 'config_control_design', 1994, #162 ) ;
#2 = AXIS2_PLACEMENT_3D ( 'NONE', #5, #165, #90 ) ;
#3 = CC_DESIGN_APPROVAL ( #6, ( #119 ) ) ;
#4 = FACE_OUTER_BOUND ( 'NONE', #54, .T. ) ;
#5 = CARTESIAN_POINT ( 'NONE',  ( 1.999999999999999112, 0.000000000000000000, 0.000000000000000000 ) ) ;
#6 = APPROVAL ( #171, 'UNSPECIFIED' ) ;
#7 = PERSON_AND_ORGANIZATION_ROLE ( 'design_owner' ) ;
#8 = APPROVAL_ROLE ( '' ) ;
#9 = CC_DESIGN_PERSON_AND_ORGANIZATION_ASSIGNMENT ( #55, #7, ( #57 ) ) ;
#10 = DIRECTION ( 'NONE',  ( -1.000000000000000000, -0.000000000000000000, -0.000000000000000000 ) ) ;
#11 = FACE_OUTER_BOUND ( 'NONE', #150, .T. ) ;
#12 = APPROVAL_DATE_TIME ( #97, #151 ) ;
#13 = AXIS2_PLACEMENT_3D ( 'NONE', #157, #31, #139 ) ;
#14 = ADVANCED_FACE ( 'NONE', ( #11 ), #161, .T. ) ;
#15 = DIRECTION ( 'NONE',  ( -1.000000000000000000, -0.000000000000000000, -0.000000000000000000 ) ) ;
#16 = DIRECTION ( 'NONE',  ( 1.000000000000000000, 0.000000000000000000, 0.000000000000000000 ) ) ;
#17 =( NAMED_UNIT ( * ) PLANE_ANGLE_UNIT ( ) SI_UNIT ( $, .RADIAN. ) );
#18 = MANIFOLD_SOLID_BREP ( 'Ðý×', #169 ) ;
#19 = CALENDAR_DATE ( 2020, 22, 12 ) ;
#20 = PERSON_AND_ORGANIZATION ( #60, #117 ) ;
#21 = CC_DESIGN_DATE_AND_TIME_ASSIGNMENT ( #66, #137, ( #172 ) ) ;
#22 = ORIENTED_EDGE ( 'NONE', *, *, #87, .F. ) ;
#23 = COORDINATED_UNIVERSAL_TIME_OFFSET ( 8, 0, .AHEAD. ) ;
#24 = LOCAL_TIME ( 17, 24, 51.00000000000000000, #91 ) ;
#25 = ORIENTED_EDGE ( 'NONE', *, *, #166, .T. ) ;
#26 = ORIENTED_EDGE ( 'NONE', *, *, #166, .F. ) ;
#27 = DIRECTION ( 'NONE',  ( -1.000000000000000000, -0.000000000000000000, -0.000000000000000000 ) ) ;
#28 = CARTESIAN_POINT ( 'NONE',  ( 1.999999999999999112, 0.000000000000000000, 0.000000000000000000 ) ) ;
#29 = FACE_OUTER_BOUND ( 'NONE', #42, .T. ) ;
#30 =( LENGTH_UNIT ( ) NAMED_UNIT ( * ) SI_UNIT ( .MILLI., .METRE. ) );
#31 = DIRECTION ( 'NONE',  ( 0.000000000000000000, 0.000000000000000000, 1.000000000000000000 ) ) ;
#32 = PERSON_AND_ORGANIZATION ( #60, #117 ) ;
#33 = ADVANCED_FACE ( 'NONE', ( #173 ), #50, .F. ) ;
#34 = PERSON_AND_ORGANIZATION ( #60, #117 ) ;
#35 = AXIS2_PLACEMENT_3D ( 'NONE', #28, #168, #73 ) ;
#36 = APPROVAL_DATE_TIME ( #75, #123 ) ;
#37 = UNCERTAINTY_MEASURE_WITH_UNIT (LENGTH_MEASURE( 1.000000000000000082E-05 ), #30, 'distance_accuracy_value', 'NONE');
#38 = CALENDAR_DATE ( 2020, 22, 12 ) ;
#39 = CIRCLE ( 'NONE', #63, 6.349999999999999645 ) ;
#40 = CARTESIAN_POINT ( 'NONE',  ( 1.999999999999999556, 6.349999999999999645, 0.000000000000000000 ) ) ;
#41 = ADVANCED_FACE ( 'NONE', ( #4 ), #70, .T. ) ;
#42 = EDGE_LOOP ( 'NONE', ( #127, #163 ) ) ;
#43 = DIRECTION ( 'NONE',  ( -1.000000000000000000, -0.000000000000000000, -0.000000000000000000 ) ) ;
#44 = APPLICATION_PROTOCOL_DEFINITION ( 'international standard', 'config_control_design', 1994, #58 ) ;
#45 = PERSON_AND_ORGANIZATION_ROLE ( 'design_supplier' ) ;
#46 = DESIGN_CONTEXT ( 'detailed design', #58, 'design' ) ;
#47 = PERSON_AND_ORGANIZATION_ROLE ( 'classification_officer' ) ;
#48 = CC_DESIGN_APPROVAL ( #123, ( #105 ) ) ;
#49 = ORIENTED_EDGE ( 'NONE', *, *, #99, .F. ) ;
#50 = PLANE ( 'NONE',  #112 ) ;
#51 =( GEOMETRIC_REPRESENTATION_CONTEXT ( 3 ) GLOBAL_UNCERTAINTY_ASSIGNED_CONTEXT ( ( #37 ) ) GLOBAL_UNIT_ASSIGNED_CONTEXT ( ( #30, #17, #88 ) ) REPRESENTATION_CONTEXT ( 'NONE', 'WORKASPACE' ) );
#52 = EDGE_CURVE ( 'NONE', #85, #100, #39, .T. ) ;
#53 = DATE_TIME_ROLE ( 'creation_date' ) ;
#54 = EDGE_LOOP ( 'NONE', ( #26, #164, #136, #22 ) ) ;
#55 = PERSON_AND_ORGANIZATION ( #60, #117 ) ;
#56 = DIRECTION ( 'NONE',  ( 0.000000000000000000, 0.000000000000000000, 1.000000000000000000 ) ) ;
#57 = PRODUCT ( 'MHWP-12.7-488', 'MHWP-12.7-488', '', ( #114 ) ) ;
#58 = APPLICATION_CONTEXT ( 'configuration controlled 3d designs of mechanical parts and assemblies' ) ;
#59 = DIRECTION ( 'NONE',  ( 0.000000000000000000, 0.000000000000000000, 1.000000000000000000 ) ) ;
#60 = PERSON ( 'UNSPECIFIED', 'UNSPECIFIED', 'UNSPECIFIED', ('UNSPECIFIED'), ('UNSPECIFIED'), ('UNSPECIFIED') ) ;
#61 = CARTESIAN_POINT ( 'NONE',  ( -4.102566777143633281E-16, 0.000000000000000000, 0.000000000000000000 ) ) ;
#62 = APPROVAL_DATE_TIME ( #93, #6 ) ;
#63 = AXIS2_PLACEMENT_3D ( 'NONE', #152, #15, #56 ) ;
#64 = COORDINATED_UNIVERSAL_TIME_OFFSET ( 8, 0, .AHEAD. ) ;
#65 = LOCAL_TIME ( 17, 24, 51.00000000000000000, #64 ) ;
#66 = DATE_AND_TIME ( #170, #102 ) ;
#67 = SHAPE_DEFINITION_REPRESENTATION ( #131, #133 ) ;
#68 = CIRCLE ( 'NONE', #148, 6.349999999999999645 ) ;
#69 = CC_DESIGN_PERSON_AND_ORGANIZATION_ASSIGNMENT ( #20, #45, ( #105 ) ) ;
#70 = CYLINDRICAL_SURFACE ( 'NONE', #156, 6.349999999999999645 ) ;
#71 = CARTESIAN_POINT ( 'NONE',  ( -4.102566777143633281E-16, 7.776507174585692163E-16, -6.349999999999999645 ) ) ;
#72 = DIRECTION ( 'NONE',  ( 0.000000000000000000, 0.000000000000000000, -1.000000000000000000 ) ) ;
#73 = DIRECTION ( 'NONE',  ( 0.000000000000000000, 0.000000000000000000, 1.000000000000000000 ) ) ;
#74 = CIRCLE ( 'NONE', #2, 6.349999999999999645 ) ;
#75 = DATE_AND_TIME ( #19, #24 ) ;
#76 = LOCAL_TIME ( 17, 24, 51.00000000000000000, #23 ) ;
#77 = PERSON_AND_ORGANIZATION ( #60, #117 ) ;
#78 = CC_DESIGN_DATE_AND_TIME_ASSIGNMENT ( #158, #53, ( #119 ) ) ;
#79 = ORIENTED_EDGE ( 'NONE', *, *, #130, .T. ) ;
#80 = PERSON_AND_ORGANIZATION_ROLE ( 'creator' ) ;
#81 = PRODUCT_RELATED_PRODUCT_CATEGORY ( 'detail', '', ( #57 ) ) ;
#82 = ORIENTED_EDGE ( 'NONE', *, *, #147, .F. ) ;
#83 = EDGE_LOOP ( 'NONE', ( #149, #82 ) ) ;
#84 = CARTESIAN_POINT ( 'NONE',  ( 0.000000000000000000, 0.000000000000000000, 0.000000000000000000 ) ) ;
#85 = VERTEX_POINT ( 'NONE', #86 ) ;
#86 = CARTESIAN_POINT ( 'NONE',  ( -4.102566777143633281E-16, 0.000000000000000000, 6.349999999999999645 ) ) ;
#87 = EDGE_CURVE ( 'NONE', #100, #85, #68, .T. ) ;
#88 =( NAMED_UNIT ( * ) SI_UNIT ( $, .STERADIAN. ) SOLID_ANGLE_UNIT ( ) );
#89 = CARTESIAN_POINT ( 'NONE',  ( -2.051283388571816641E-16, 6.349999999999999645, 0.000000000000000000 ) ) ;
#90 = DIRECTION ( 'NONE',  ( 0.000000000000000000, 0.000000000000000000, 1.000000000000000000 ) ) ;
#91 = COORDINATED_UNIVERSAL_TIME_OFFSET ( 8, 0, .AHEAD. ) ;
#92 = CC_DESIGN_PERSON_AND_ORGANIZATION_ASSIGNMENT ( #132, #80, ( #105 ) ) ;
#93 = DATE_AND_TIME ( #38, #76 ) ;
#94 = CALENDAR_DATE ( 2020, 22, 12 ) ;
#95 = AXIS2_PLACEMENT_3D ( 'NONE', #89, #16, #72 ) ;
#96 = SECURITY_CLASSIFICATION_LEVEL ( 'unclassified' ) ;
#97 = DATE_AND_TIME ( #94, #65 ) ;
#98 = VERTEX_POINT ( 'NONE', #153 ) ;
#99 = EDGE_CURVE ( 'NONE', #98, #85, #106, .T. ) ;
#100 = VERTEX_POINT ( 'NONE', #71 ) ;
#101 = ORIENTED_EDGE ( 'NONE', *, *, #52, .F. ) ;
#102 = LOCAL_TIME ( 17, 24, 51.00000000000000000, #134 ) ;
#103 = DIRECTION ( 'NONE',  ( -1.000000000000000000, 0.000000000000000000, -0.000000000000000000 ) ) ;
#104 = DIRECTION ( 'NONE',  ( 0.000000000000000000, 0.000000000000000000, 1.000000000000000000 ) ) ;
#105 = PRODUCT_DEFINITION_FORMATION_WITH_SPECIFIED_SOURCE ( 'ANY', '', #57, .NOT_KNOWN. ) ;
#106 = LINE ( 'NONE', #116, #167 ) ;
#107 = LINE ( 'NONE', #155, #110 ) ;
#108 = PERSON_AND_ORGANIZATION_ROLE ( 'creator' ) ;
#109 = APPROVAL_ROLE ( '' ) ;
#110 = VECTOR ( 'NONE', #129, 1000.000000000000000 ) ;
#111 = APPROVAL_STATUS ( 'not_yet_approved' ) ;
#112 = AXIS2_PLACEMENT_3D ( 'NONE', #40, #103, #118 ) ;
#113 = APPROVAL_STATUS ( 'not_yet_approved' ) ;
#114 = MECHANICAL_CONTEXT ( 'NONE', #162, 'mechanical' ) ;
#115 = PLANE ( 'NONE',  #95 ) ;
#116 = CARTESIAN_POINT ( 'NONE',  ( 0.000000000000000000, 0.000000000000000000, 6.349999999999999645 ) ) ;
#117 = ORGANIZATION ( 'UNSPECIFIED', 'UNSPECIFIED', '' ) ;
#118 = DIRECTION ( 'NONE',  ( -0.000000000000000000, 0.000000000000000000, 1.000000000000000000 ) ) ;
#119 = PRODUCT_DEFINITION ( 'UNKNOWN', '', #105, #46 ) ;
#120 = PERSON_AND_ORGANIZATION ( #60, #117 ) ;
#121 = ADVANCED_FACE ( 'NONE', ( #29 ), #115, .F. ) ;
#122 = PERSON_AND_ORGANIZATION ( #60, #117 ) ;
#123 = APPROVAL ( #113, 'UNSPECIFIED' ) ;
#124 = CIRCLE ( 'NONE', #35, 6.349999999999999645 ) ;
#125 = APPROVAL_PERSON_ORGANIZATION ( #34, #151, #8 ) ;
#126 = DIRECTION ( 'NONE',  ( 0.000000000000000000, 0.000000000000000000, 1.000000000000000000 ) ) ;
#127 = ORIENTED_EDGE ( 'NONE', *, *, #52, .T. ) ;
#128 = CC_DESIGN_PERSON_AND_ORGANIZATION_ASSIGNMENT ( #77, #47, ( #172 ) ) ;
#129 = DIRECTION ( 'NONE',  ( -1.000000000000000000, -0.000000000000000000, -0.000000000000000000 ) ) ;
#130 = EDGE_CURVE ( 'NONE', #98, #138, #124, .T. ) ;
#131 = PRODUCT_DEFINITION_SHAPE ( 'NONE', 'NONE',  #119 ) ;
#132 = PERSON_AND_ORGANIZATION ( #60, #117 ) ;
#133 = ADVANCED_BREP_SHAPE_REPRESENTATION ( 'MHWP-12.7-488', ( #18, #13 ), #51 ) ;
#134 = COORDINATED_UNIVERSAL_TIME_OFFSET ( 8, 0, .AHEAD. ) ;
#135 = AXIS2_PLACEMENT_3D ( 'NONE', #84, #10, #126 ) ;
#136 = ORIENTED_EDGE ( 'NONE', *, *, #99, .T. ) ;
#137 = DATE_TIME_ROLE ( 'classification_date' ) ;
#138 = VERTEX_POINT ( 'NONE', #141 ) ;
#139 = DIRECTION ( 'NONE',  ( 1.000000000000000000, 0.000000000000000000, 0.000000000000000000 ) ) ;
#140 = CC_DESIGN_PERSON_AND_ORGANIZATION_ASSIGNMENT ( #120, #108, ( #119 ) ) ;
#141 = CARTESIAN_POINT ( 'NONE',  ( 1.999999999999999112, 7.776507174585692163E-16, -6.349999999999999645 ) ) ;
#142 = CARTESIAN_POINT ( 'NONE',  ( 0.000000000000000000, 0.000000000000000000, 0.000000000000000000 ) ) ;
#143 = DIRECTION ( 'NONE',  ( -1.000000000000000000, -0.000000000000000000, -0.000000000000000000 ) ) ;
#144 = CALENDAR_DATE ( 2020, 22, 12 ) ;
#145 = APPROVAL_ROLE ( '' ) ;
#146 = CC_DESIGN_SECURITY_CLASSIFICATION ( #172, ( #105 ) ) ;
#147 = EDGE_CURVE ( 'NONE', #138, #98, #74, .T. ) ;
#148 = AXIS2_PLACEMENT_3D ( 'NONE', #61, #43, #104 ) ;
#149 = ORIENTED_EDGE ( 'NONE', *, *, #130, .F. ) ;
#150 = EDGE_LOOP ( 'NONE', ( #79, #25, #101, #49 ) ) ;
#151 = APPROVAL ( #111, 'UNSPECIFIED' ) ;
#152 = CARTESIAN_POINT ( 'NONE',  ( -4.102566777143633281E-16, 0.000000000000000000, 0.000000000000000000 ) ) ;
#153 = CARTESIAN_POINT ( 'NONE',  ( 1.999999999999999112, 0.000000000000000000, 6.349999999999999645 ) ) ;
#154 = APPROVAL_PERSON_ORGANIZATION ( #122, #6, #109 ) ;
#155 = CARTESIAN_POINT ( 'NONE',  ( 0.000000000000000000, 7.776507174585692163E-16, -6.349999999999999645 ) ) ;
#156 = AXIS2_PLACEMENT_3D ( 'NONE', #142, #143, #59 ) ;
#157 = CARTESIAN_POINT ( 'NONE',  ( 0.000000000000000000, 0.000000000000000000, 0.000000000000000000 ) ) ;
#158 = DATE_AND_TIME ( #144, #174 ) ;
#159 = COORDINATED_UNIVERSAL_TIME_OFFSET ( 8, 0, .AHEAD. ) ;
#160 = APPROVAL_PERSON_ORGANIZATION ( #32, #123, #145 ) ;
#161 = CYLINDRICAL_SURFACE ( 'NONE', #135, 6.349999999999999645 ) ;
#162 = APPLICATION_CONTEXT ( 'configuration controlled 3d designs of mechanical parts and assemblies' ) ;
#163 = ORIENTED_EDGE ( 'NONE', *, *, #87, .T. ) ;
#164 = ORIENTED_EDGE ( 'NONE', *, *, #147, .T. ) ;
#165 = DIRECTION ( 'NONE',  ( -1.000000000000000000, -0.000000000000000000, -0.000000000000000000 ) ) ;
#166 = EDGE_CURVE ( 'NONE', #138, #100, #107, .T. ) ;
#167 = VECTOR ( 'NONE', #27, 1000.000000000000000 ) ;
#168 = DIRECTION ( 'NONE',  ( -1.000000000000000000, -0.000000000000000000, -0.000000000000000000 ) ) ;
#169 = CLOSED_SHELL ( 'NONE', ( #14, #41, #33, #121 ) ) ;
#170 = CALENDAR_DATE ( 2020, 22, 12 ) ;
#171 = APPROVAL_STATUS ( 'not_yet_approved' ) ;
#172 = SECURITY_CLASSIFICATION ( '', '', #96 ) ;
#173 = FACE_OUTER_BOUND ( 'NONE', #83, .T. ) ;
#174 = LOCAL_TIME ( 17, 24, 51.00000000000000000, #159 ) ;
#175 = CC_DESIGN_APPROVAL ( #151, ( #172 ) ) ;
ENDSEC;
END-ISO-10303-21;
